  0
SECTION
  2
HEADER
  9
$ACADVER
  1
AC1014
  9
$ACADMAINTVER
 70
     9
  9
$DWGCODEPAGE
  3
ANSI_932
  9
$INSBASE
 10
0.0
 20
0.0
 30
0.0
  9
$EXTMIN
 10
-237.3881681014863
 20
-88.69290722980861
 30
0.0
  9
$EXTMAX
 10
243.1913362029725
 20
91.65807259815693
 30
0.0
  9
$LIMMIN
 10
-148.5
 20
-105.0
  9
$LIMMAX
 10
148.5
 20
105.0
  9
$ORTHOMODE
 70
     0
  9
$REGENMODE
 70
     1
  9
$FILLMODE
 70
     1
  9
$QTEXTMODE
 70
     0
  9
$MIRRTEXT
 70
     1
  9
$DRAGMODE
 70
     2
  9
$LTSCALE
 40
1.0
  9
$OSMODE
 70
    37
  9
$ATTMODE
 70
     1
  9
$TEXTSIZE
 40
0.2
  9
$TRACEWID
 40
0.05
  9
$TEXTSTYLE
  7
STANDARD
  9
$CLAYER
  8
0
  9
$CELTYPE
  6
BYLAYER
  9
$CECOLOR
 62
   256
  9
$CELTSCALE
 40
1.0
  9
$DELOBJ
 70
     1
  9
$DISPSILH
 70
     0
  9
$DIMSCALE
 40
1.0
  9
$DIMASZ
 40
2.5
  9
$DIMEXO
 40
0.0625
  9
$DIMDLI
 40
0.38
  9
$DIMRND
 40
0.0
  9
$DIMDLE
 40
0.0
  9
$DIMEXE
 40
0.18
  9
$DIMTP
 40
0.0
  9
$DIMTM
 40
0.0
  9
$DIMTXT
 40
0.18
  9
$DIMCEN
 40
0.09
  9
$DIMTSZ
 40
0.0
  9
$DIMTOL
 70
     0
  9
$DIMLIM
 70
     0
  9
$DIMTIH
 70
     1
  9
$DIMTOH
 70
     1
  9
$DIMSE1
 70
     0
  9
$DIMSE2
 70
     0
  9
$DIMTAD
 70
     3
  9
$DIMZIN
 70
     0
  9
$DIMBLK
  1

  9
$DIMASO
 70
     1
  9
$DIMSHO
 70
     1
  9
$DIMPOST
  1

  9
$DIMAPOST
  1

  9
$DIMALT
 70
     0
  9
$DIMALTD
 70
     2
  9
$DIMALTF
 40
25.4
  9
$DIMLFAC
 40
1.0
  9
$DIMTOFL
 70
     0
  9
$DIMTVP
 40
0.0
  9
$DIMTIX
 70
     0
  9
$DIMSOXD
 70
     0
  9
$DIMSAH
 70
     0
  9
$DIMBLK1
  1

  9
$DIMBLK2
  1

  9
$DIMSTYLE
  2
STANDARD
  9
$DIMCLRD
 70
     0
  9
$DIMCLRE
 70
     0
  9
$DIMCLRT
 70
     0
  9
$DIMTFAC
 40
1.0
  9
$DIMGAP
 40
0.09
  9
$DIMJUST
 70
     0
  9
$DIMSD1
 70
     0
  9
$DIMSD2
 70
     0
  9
$DIMTOLJ
 70
     1
  9
$DIMTZIN
 70
     0
  9
$DIMALTZ
 70
     0
  9
$DIMALTTZ
 70
     0
  9
$DIMFIT
 70
     3
  9
$DIMUPT
 70
     0
  9
$DIMUNIT
 70
     2
  9
$DIMDEC
 70
     4
  9
$DIMTDEC
 70
     4
  9
$DIMALTU
 70
     2
  9
$DIMALTTD
 70
     2
  9
$DIMTXSTY
  7
STANDARD
  9
$DIMAUNIT
 70
     0
  9
$LUNITS
 70
     2
  9
$LUPREC
 70
     4
  9
$SKETCHINC
 40
0.1
  9
$FILLETRAD
 40
0.5
  9
$AUNITS
 70
     0
  9
$AUPREC
 70
     0
  9
$MENU
  1
.
  9
$ELEVATION
 40
0.0
  9
$PELEVATION
 40
0.0
  9
$THICKNESS
 40
0.0
  9
$LIMCHECK
 70
     0
  9
$CHAMFERA
 40
0.5
  9
$CHAMFERB
 40
0.5
  9
$CHAMFERC
 40
1.0
  9
$CHAMFERD
 40
0.0
  9
$SKPOLY
 70
     0
  9
$TDCREATE
 40
2456434.79203993
  9
$TDUPDATE
 40
2456434.792039942
  9
$TDINDWG
 40
0.0000000116
  9
$TDUSRTIMER
 40
0.0000000116
  9
$USRTIMER
 70
     1
  9
$ANGBASE
 50
0.0
  9
$ANGDIR
 70
     0
  9
$PDMODE
 70
     0
  9
$PDSIZE
 40
1.0
  9
$PLINEWID
 40
0.0
  9
$COORDS
 70
     1
  9
$SPLFRAME
 70
     0
  9
$SPLINETYPE
 70
     6
  9
$SPLINESEGS
 70
     8
  9
$ATTDIA
 70
     0
  9
$ATTREQ
 70
     1
  9
$HANDLING
 70
     1
  9
$HANDSEED
  5
141
  9
$SURFTAB1
 70
     6
  9
$SURFTAB2
 70
     6
  9
$SURFTYPE
 70
     6
  9
$SURFU
 70
     6
  9
$SURFV
 70
     6
  9
$UCSNAME
  2

  9
$UCSORG
 10
0.0
 20
0.0
 30
0.0
  9
$UCSXDIR
 10
1.0
 20
0.0
 30
0.0
  9
$UCSYDIR
 10
0.0
 20
1.0
 30
0.0
  9
$PUCSNAME
  2

  9
$PUCSORG
 10
0.0
 20
0.0
 30
0.0
  9
$PUCSXDIR
 10
1.0
 20
0.0
 30
0.0
  9
$PUCSYDIR
 10
0.0
 20
1.0
 30
0.0
  9
$USERI1
 70
     0
  9
$USERI2
 70
     0
  9
$USERI3
 70
     0
  9
$USERI4
 70
     0
  9
$USERI5
 70
     0
  9
$USERR1
 40
0.0
  9
$USERR2
 40
0.0
  9
$USERR3
 40
0.0
  9
$USERR4
 40
0.0
  9
$USERR5
 40
0.0
  9
$WORLDVIEW
 70
     1
  9
$SHADEDGE
 70
     3
  9
$SHADEDIF
 70
    70
  9
$TILEMODE
 70
     1
  9
$MAXACTVP
 70
    64
  9
$PINSBASE
 10
0.0
 20
0.0
 30
0.0
  9
$PLIMCHECK
 70
     0
  9
$PEXTMIN
 10
1.000000000000000E+20
 20
1.000000000000000E+20
 30
1.000000000000000E+20
  9
$PEXTMAX
 10
-1.000000000000000E+20
 20
-1.000000000000000E+20
 30
-1.000000000000000E+20
  9
$PLIMMIN
 10
0.0
 20
0.0
  9
$PLIMMAX
 10
12.0
 20
9.0
  9
$UNITMODE
 70
     0
  9
$VISRETAIN
 70
     0
  9
$PLINEGEN
 70
     1
  9
$PSLTSCALE
 70
     0
  9
$TREEDEPTH
 70
  3020
  9
$PICKSTYLE
 70
     1
  9
$CMLSTYLE
  2
STANDARD
  9
$CMLJUST
 70
     0
  9
$CMLSCALE
 40
1.0
  9
$PROXYGRAPHICS
 70
     0
  9
$MEASUREMENT
 70
     1
  0
ENDSEC
  0
SECTION
  2
CLASSES
  0
CLASS
  1
ACDBDICTIONARYWDFLT
  2
AcDbDictionaryWithDefault
  3
ObjectDBX Classes
 90
        0
280
     0
281
     0
  0
CLASS
  1
XRECORD
  2
AcDbXrecord
  3
AutoCAD 2000
 90
        0
280
     0
281
     0
  0
CLASS
  1
LWPOLYLINE
  2
AcDbPolyline
  3
AutoCAD 2000
 90
        0
280
     0
281
     1
  0
CLASS
  1
HATCH
  2
AcDbHatch
  3
AutoCAD 2000
 90
        0
280
     0
281
     1
  0
CLASS
  1
ACDBPLACEHOLDER
  2
AcDbPlaceHolder
  3
ObjectDBX Classes
 90
        0
280
     0
281
     0
  0
CLASS
  1
LAYOUT
  2
AcDbLayout
  3
ObjectDBX Classes
 90
        0
280
     0
281
     0
  0
ENDSEC
  0
SECTION
  2
TABLES
  0
TABLE
  2
VPORT
  5
8
330
0
100
AcDbSymbolTable
 70
     1
  0
VPORT
  5
29
330
8
100
AcDbSymbolTableRecord
100
AcDbViewportTableRecord
  2
*ACTIVE
 70
     0
 10
0.0
 20
0.0
 11
1.0
 21
1.0
 12
0.0
 22
0.0
 13
0.0
 23
0.0
 14
0.5
 24
0.5
 15
0.5
 25
0.5
 16
0.0
 26
0.0
 36
1.0
 17
2.901584050743136
 27
1.482582684174158
 37
0.0
 40
61.31933314150828
 41
2.664690287587444
 42
50.0
 43
0.0
 44
0.0
 50
0.0
 51
0.0
 71
     0
 72
  1000
 73
     1
 74
     1
 75
     0
 76
     0
 77
     0
 78
     0
  0
ENDTAB
  0
TABLE
  2
LTYPE
  5
5
330
0
100
AcDbSymbolTable
 70
    28
  0
LTYPE
  5
14
330
5
100
AcDbSymbolTableRecord
100
AcDbLinetypeTableRecord
  2
BYBLOCK
 70
     0
  3

 72
    65
 73
     0
 40
0.0
  0
LTYPE
  5
15
330
5
100
AcDbSymbolTableRecord
100
AcDbLinetypeTableRecord
  2
BYLAYER
 70
     0
  3

 72
    65
 73
     0
 40
0.0
  0
LTYPE
  5
16
330
5
100
AcDbSymbolTableRecord
100
AcDbLinetypeTableRecord
  2
CONTINUOUS
 70
     0
  3
Solid line
 72
    65
 73
     0
 40
0.0
  0
LTYPE
  5
2B
330
5
100
AcDbSymbolTableRecord
100
AcDbLinetypeTableRecord
  2
HIDDENX2
 70
     0
  3
CADPAC LINETYPE
 72
    65
 73
     2
 40
4.666666666666686
 49
3.500000000000014
 74
     0
 49
-1.166666666666671
 74
     0
  0
LTYPE
  5
2C
330
5
100
AcDbSymbolTableRecord
100
AcDbLinetypeTableRecord
  2
HIDDEN
 70
     0
  3
CADPAC LINETYPE
 72
    65
 73
     2
 40
3.500000000000014
 49
2.333333333333343
 74
     0
 49
-1.166666666666671
 74
     0
  0
LTYPE
  5
2D
330
5
100
AcDbSymbolTableRecord
100
AcDbLinetypeTableRecord
  2
HIDDEN2
 70
     0
  3
CADPAC LINETYPE
 72
    65
 73
     2
 40
2.916666666666679
 49
1.750000000000007
 74
     0
 49
-1.166666666666671
 74
     0
  0
LTYPE
  5
2E
330
5
100
AcDbSymbolTableRecord
100
AcDbLinetypeTableRecord
  2
DASHED
 70
     0
  3
CADPAC LINETYPE
 72
    65
 73
     2
 40
3.266666666666708
 49
2.333333333333343
 74
     0
 49
-0.9333333333333655
 74
     0
  0
LTYPE
  5
2F
330
5
100
AcDbSymbolTableRecord
100
AcDbLinetypeTableRecord
  2
DASHED2
 70
     0
  3
CADPAC LINETYPE
 72
    65
 73
     2
 40
2.100000000000023
 49
1.400000000000006
 74
     0
 49
-0.7000000000000171
 74
     0
  0
LTYPE
  5
30
330
5
100
AcDbSymbolTableRecord
100
AcDbLinetypeTableRecord
  2
DASHEDX2
 70
     0
  3
CADPAC LINETYPE
 72
    65
 73
     2
 40
5.600000000000051
 49
4.666666666666686
 74
     0
 49
-0.9333333333333655
 74
     0
  0
LTYPE
  5
31
330
5
100
AcDbSymbolTableRecord
100
AcDbLinetypeTableRecord
  2
DOTX2
 70
     0
  3
CADPAC LINETYPE
 72
    65
 73
     2
 40
2.041666666666693
 49
0.0
 74
     0
 49
-2.041666666666693
 74
     0
  0
LTYPE
  5
32
330
5
100
AcDbSymbolTableRecord
100
AcDbLinetypeTableRecord
  2
DOT
 70
     0
  3
CADPAC LINETYPE
 72
    65
 73
     2
 40
1.633333333333354
 49
0.0
 74
     0
 49
-1.633333333333354
 74
     0
  0
LTYPE
  5
33
330
5
100
AcDbSymbolTableRecord
100
AcDbLinetypeTableRecord
  2
DOT2
 70
     0
  3
CADPAC LINETYPE
 72
    65
 73
     2
 40
1.225000000000016
 49
0.0
 74
     0
 49
-1.225000000000016
 74
     0
  0
LTYPE
  5
34
330
5
100
AcDbSymbolTableRecord
100
AcDbLinetypeTableRecord
  2
CENTERX2
 70
     0
  3
CADPAC LINETYPE
 72
    65
 73
     4
 40
7.000000000000028
 49
2.916666666666679
 74
     0
 49
-1.458333333333339
 74
     0
 49
1.166666666666671
 74
     0
 49
-1.458333333333339
 74
     0
  0
LTYPE
  5
35
330
5
100
AcDbSymbolTableRecord
100
AcDbLinetypeTableRecord
  2
CENTER
 70
     0
  3
CADPAC LINETYPE
 72
    65
 73
     4
 40
5.366666666666689
 49
2.333333333333343
 74
     0
 49
-1.166666666666671
 74
     0
 49
0.7000000000000028
 74
     0
 49
-1.166666666666671
 74
     0
  0
LTYPE
  5
36
330
5
100
AcDbSymbolTableRecord
100
AcDbLinetypeTableRecord
  2
CENTER2
 70
     0
  3
CADPAC LINETYPE
 72
    65
 73
     4
 40
3.733333333333349
 49
1.750000000000007
 74
     0
 49
-0.8750000000000036
 74
     0
 49
0.2333333333333343
 74
     0
 49
-0.8750000000000036
 74
     0
  0
LTYPE
  5
37
330
5
100
AcDbSymbolTableRecord
100
AcDbLinetypeTableRecord
  2
DASHDOTX2
 70
     0
  3
CADPAC LINETYPE
 72
    65
 73
     4
 40
11.20000000000005
 49
5.600000000000023
 74
     0
 49
-1.866666666666674
 74
     0
 49
1.866666666666674
 74
     0
 49
-1.866666666666674
 74
     0
  0
LTYPE
  5
38
330
5
100
AcDbSymbolTableRecord
100
AcDbLinetypeTableRecord
  2
DASHDOT
 70
     0
  3
CADPAC LINETYPE
 72
    65
 73
     4
 40
5.600000000000108
 49
2.800000000000011
 74
     0
 49
-0.9333333333333655
 74
     0
 49
0.9333333333333655
 74
     0
 49
-0.9333333333333655
 74
     0
  0
LTYPE
  5
39
330
5
100
AcDbSymbolTableRecord
100
AcDbLinetypeTableRecord
  2
DASHDOT2
 70
     0
  3
CADPAC LINETYPE
 72
    65
 73
     4
 40
3.593333333333393
 49
2.100000000000009
 74
     0
 49
-0.7000000000000242
 74
     0
 49
0.0933333333333366
 74
     0
 49
-0.7000000000000242
 74
     0
  0
LTYPE
  5
3A
330
5
100
AcDbSymbolTableRecord
100
AcDbLinetypeTableRecord
  2
DIVIDEX2
 70
     0
  3
CADPAC LINETYPE
 72
    65
 73
     6
 40
14.93333333333339
 49
5.600000000000023
 74
     0
 49
-1.866666666666674
 74
     0
 49
1.866666666666674
 74
     0
 49
-1.866666666666674
 74
     0
 49
1.866666666666674
 74
     0
 49
-1.866666666666674
 74
     0
  0
LTYPE
  5
3B
330
5
100
AcDbSymbolTableRecord
100
AcDbLinetypeTableRecord
  2
DIVIDE
 70
     0
  3
CADPAC LINETYPE
 72
    65
 73
     6
 40
7.466666666666839
 49
2.800000000000011
 74
     0
 49
-0.9333333333333655
 74
     0
 49
0.9333333333333655
 74
     0
 49
-0.9333333333333655
 74
     0
 49
0.9333333333333655
 74
     0
 49
-0.9333333333333655
 74
     0
  0
LTYPE
  5
3C
330
5
100
AcDbSymbolTableRecord
100
AcDbLinetypeTableRecord
  2
DIVIDE2
 70
     0
  3
CADPAC LINETYPE
 72
    65
 73
     6
 40
5.600000000000129
 49
2.100000000000009
 74
     0
 49
-0.7000000000000242
 74
     0
 49
0.7000000000000242
 74
     0
 49
-0.7000000000000242
 74
     0
 49
0.7000000000000242
 74
     0
 49
-0.7000000000000242
 74
     0
  0
LTYPE
  5
3D
330
5
100
AcDbSymbolTableRecord
100
AcDbLinetypeTableRecord
  2
BORDERX2
 70
     0
  3
CADPAC LINETYPE
 72
    65
 73
     6
 40
10.20833333333338
 49
2.916666666666679
 74
     0
 49
-1.458333333333339
 74
     0
 49
2.916666666666679
 74
     0
 49
-1.458333333333339
 74
     0
 49
0.0
 74
     0
 49
-1.458333333333339
 74
     0
  0
LTYPE
  5
3E
330
5
100
AcDbSymbolTableRecord
100
AcDbLinetypeTableRecord
  2
BORDER
 70
     0
  3
CADPAC LINETYPE
 72
    65
 73
     6
 40
8.1666666666667
 49
2.333333333333343
 74
     0
 49
-1.166666666666671
 74
     0
 49
2.333333333333343
 74
     0
 49
-1.166666666666671
 74
     0
 49
0.0
 74
     0
 49
-1.166666666666671
 74
     0
  0
LTYPE
  5
3F
330
5
100
AcDbSymbolTableRecord
100
AcDbLinetypeTableRecord
  2
BORDER2
 70
     0
  3
CADPAC LINETYPE
 72
    65
 73
     6
 40
6.066666666666734
 49
1.866666666666674
 74
     0
 49
-1.166666666666686
 74
     0
 49
0.7000000000000171
 74
     0
 49
-1.166666666666686
 74
     0
 49
0.0
 74
     0
 49
-1.166666666666671
 74
     0
  0
LTYPE
  5
40
330
5
100
AcDbSymbolTableRecord
100
AcDbLinetypeTableRecord
  2
PHANTOMX2
 70
     0
  3
CADPAC LINETYPE
 72
    65
 73
     6
 40
8.750000000000036
 49
2.916666666666679
 74
     0
 49
-1.166666666666671
 74
     0
 49
1.166666666666671
 74
     0
 49
-1.166666666666671
 74
     0
 49
1.166666666666671
 74
     0
 49
-1.166666666666671
 74
     0
  0
LTYPE
  5
41
330
5
100
AcDbSymbolTableRecord
100
AcDbLinetypeTableRecord
  2
PHANTOM
 70
     0
  3
CADPAC LINETYPE
 72
    65
 73
     6
 40
7.233333333333363
 49
2.333333333333343
 74
     0
 49
-1.166666666666671
 74
     0
 49
0.7000000000000028
 74
     0
 49
-1.166666666666671
 74
     0
 49
0.7000000000000028
 74
     0
 49
-1.166666666666671
 74
     0
  0
LTYPE
  5
42
330
5
100
AcDbSymbolTableRecord
100
AcDbLinetypeTableRecord
  2
PHANTOM2
 70
     0
  3
CADPAC LINETYPE
 72
    65
 73
     6
 40
6.183333333333358
 49
1.750000000000007
 74
     0
 49
-1.166666666666671
 74
     0
 49
0.4666666666666686
 74
     0
 49
-1.166666666666671
 74
     0
 49
0.4666666666666686
 74
     0
 49
-1.166666666666671
 74
     0
  0
LTYPE
  5
43
330
5
100
AcDbSymbolTableRecord
100
AcDbLinetypeTableRecord
  2
ACAD_ISO06W100
 70
     0
  3
CADPAC LINETYPE
 72
    65
 73
     8
 40
12.36666666666682
 49
5.600000000000023
 74
     0
 49
-1.166666666666686
 74
     0
 49
0.7000000000000171
 74
     0
 49
-1.166666666666686
 74
     0
 49
0.7000000000000171
 74
     0
 49
-1.166666666666686
 74
     0
 49
0.7000000000000171
 74
     0
 49
-1.166666666666686
 74
     0
  0
LTYPE
  5
44
330
5
100
AcDbSymbolTableRecord
100
AcDbLinetypeTableRecord
  2
ACAD_ISO13W100
 70
     0
  3
CADPAC LINETYPE
 72
    65
 73
     8
 40
9.333333333333371
 49
2.333333333333343
 74
     0
 49
-1.166666666666671
 74
     0
 49
2.333333333333343
 74
     0
 49
-1.166666666666671
 74
     0
 49
0.0
 74
     0
 49
-1.166666666666671
 74
     0
 49
0.0
 74
     0
 49
-1.166666666666671
 74
     0
  0
LTYPE
  5
45
330
5
100
AcDbSymbolTableRecord
100
AcDbLinetypeTableRecord
  2
ACAD_ISO14W100
 70
     0
  3
CADPAC LINETYPE
 72
    65
 73
     8
 40
7.000000000000028
 49
2.333333333333343
 74
     0
 49
-1.166666666666671
 74
     0
 49
0.0
 74
     0
 49
-1.166666666666671
 74
     0
 49
0.0
 74
     0
 49
-1.166666666666671
 74
     0
 49
0.0
 74
     0
 49
-1.166666666666671
 74
     0
  0
ENDTAB
  0
TABLE
  2
LAYER
  5
2
330
0
100
AcDbSymbolTable
 70
     1
  0
LAYER
  5
10
330
2
100
AcDbSymbolTableRecord
100
AcDbLayerTableRecord
  2
0
 70
     0
 62
     7
  6
CONTINUOUS
  0
ENDTAB
  0
TABLE
  2
STYLE
  5
3
330
0
100
AcDbSymbolTable
 70
     2
  0
STYLE
  5
11
330
3
100
AcDbSymbolTableRecord
100
AcDbTextStyleTableRecord
  2
STANDARD
 70
     0
 40
0.0
 41
1.0
 50
0.0
 71
     0
 42
0.2
  3
txt
  4

  0
STYLE
  5
107
330
3
100
AcDbSymbolTableRecord
100
AcDbTextStyleTableRecord
  2
FDASTYLE0
 70
     0
 40
4.0
 41
0.7999999999999999
 50
0.0
 71
     0
 42
0.2
  3
txt.shx
  4
bigfont
  0
ENDTAB
  0
TABLE
  2
VIEW
  5
6
330
0
100
AcDbSymbolTable
 70
     0
  0
ENDTAB
  0
TABLE
  2
UCS
  5
7
330
0
100
AcDbSymbolTable
 70
     0
  0
ENDTAB
  0
TABLE
  2
APPID
  5
9
330
0
100
AcDbSymbolTable
 70
     2
  0
APPID
  5
12
330
9
100
AcDbSymbolTableRecord
100
AcDbRegAppTableRecord
  2
ACAD
 70
     0
  0
APPID
  5
2A
330
9
100
AcDbSymbolTableRecord
100
AcDbRegAppTableRecord
  2
DAFUSIONOUT
 70
     0
  0
ENDTAB
  0
TABLE
  2
DIMSTYLE
  5
A
330
0
100
AcDbSymbolTable
 70
     1
  0
DIMSTYLE
105
27
330
A
100
AcDbSymbolTableRecord
100
AcDbDimStyleTableRecord
  2
STANDARD
 70
     0
  3

  4

  5

  6

  7

 40
1.0
 41
0.18
 42
0.0625
 43
0.38
 44
0.18
 45
0.0
 46
0.0
 47
0.0
 48
0.0
140
0.18
141
0.09
142
0.0
143
25.4
144
1.0
145
0.0
146
1.0
147
0.09
 71
     0
 72
     0
 73
     1
 74
     1
 75
     0
 76
     0
 77
     0
 78
     0
170
     0
171
     2
172
     0
173
     0
174
     0
175
     0
176
     0
177
     0
178
     0
270
     2
271
     4
272
     4
273
     2
274
     2
340
11
275
     0
280
     0
281
     0
282
     0
283
     1
284
     0
285
     0
286
     0
287
     3
288
     0
  0
ENDTAB
  0
TABLE
  2
BLOCK_RECORD
  5
1
330
0
100
AcDbSymbolTable
 70
     3
  0
BLOCK_RECORD
  5
1F
330
1
100
AcDbSymbolTableRecord
100
AcDbBlockTableRecord
  2
*MODEL_SPACE
  0
BLOCK_RECORD
  5
1B
330
1
100
AcDbSymbolTableRecord
100
AcDbBlockTableRecord
  2
*PAPER_SPACE
  0
BLOCK_RECORD
  5
50
330
1
100
AcDbSymbolTableRecord
100
AcDbBlockTableRecord
  2
_OPEN30
  0
BLOCK_RECORD
  5
58
330
1
100
AcDbSymbolTableRecord
100
AcDbBlockTableRecord
  2
_DOT
  0
ENDTAB
  0
ENDSEC
  0
SECTION
  2
BLOCKS
  0
BLOCK
  5
20
330
1F
100
AcDbEntity
  8
0
100
AcDbBlockBegin
  2
*MODEL_SPACE
 70
     0
 71
     0
 10
0.0
 20
0.0
 30
0.0
  3
*MODEL_SPACE
  1

  0
ENDBLK
  5
21
330
1F
100
AcDbEntity
  8
0
100
AcDbBlockEnd
  0
BLOCK
  5
1C
330
1B
100
AcDbEntity
 67
     1
  8
0
100
AcDbBlockBegin
  2
*PAPER_SPACE
 70
     0
 71
     0
 10
0.0
 20
0.0
 30
0.0
  3
*PAPER_SPACE
  1

  0
ENDBLK
  5
1D
330
1B
100
AcDbEntity
 67
     1
  8
0
100
AcDbBlockEnd
  0
BLOCK
  5
51
330
50
100
AcDbEntity
  8
0
100
AcDbBlockBegin
  2
_OPEN30
 70
     0
 71
     0
 10
0.0
 20
0.0
 30
0.0
  3
_OPEN30
  1

  0
LINE
  5
53
330
50
100
AcDbEntity
  8
0
  6
BYBLOCK
 62
     0
100
AcDbLine
 10
-1.0
 20
0.267949
 30
0.0
 11
0.0
 21
0.0
 31
0.0
  0
LINE
  5
54
330
50
100
AcDbEntity
  8
0
  6
BYBLOCK
 62
     0
100
AcDbLine
 10
0.0
 20
0.0
 30
0.0
 11
-1.0
 21
-0.267949
 31
0.0
  0
LINE
  5
55
330
50
100
AcDbEntity
  8
0
  6
BYBLOCK
 62
     0
100
AcDbLine
 10
0.0
 20
0.0
 30
0.0
 11
-1.0
 21
0.0
 31
0.0
  0
ENDBLK
  5
52
330
50
100
AcDbEntity
  8
0
100
AcDbBlockEnd
  0
BLOCK
  5
59
330
58
100
AcDbEntity
  8
0
100
AcDbBlockBegin
  2
_DOT
 70
     0
 71
     0
 10
0.0
 20
0.0
 30
0.0
  3
_DOT
  1

  0
LWPOLYLINE
  5
5B
330
58
100
AcDbEntity
  8
0
  6
BYBLOCK
 62
     0
100
AcDbPolyline
 90
        2
 70
     1
 43
0.5
 10
-0.25
 20
0.0
 42
1.0
 10
0.25
 20
0.0
 42
1.0
  0
LINE
  5
5C
330
58
100
AcDbEntity
  8
0
  6
BYBLOCK
 62
     0
100
AcDbLine
 10
-0.5
 20
0.0
 30
0.0
 11
-1.0
 21
0.0
 31
0.0
  0
ENDBLK
  5
5A
330
58
100
AcDbEntity
  8
0
100
AcDbBlockEnd
  0
ENDSEC
  0
SECTION
  2
ENTITIES
  0
LINE
  5
47
330
1F
100
AcDbEntity
  8
0
  6
CENTER
 62
     9
100
AcDbLine
 10
-24.19499999999997
 20
-5.65892067783158
 30
0.0
 11
25.80500000000005
 21
-5.65892067783158
 31
0.0
  0
LINE
  5
48
330
1F
100
AcDbEntity
  8
0
  6
CENTER
 62
     9
100
AcDbLine
 10
-65.19499999999997
 20
-5.658920677831594
 30
0.0
 11
-77.19499999999999
 21
-5.658920677831594
 31
0.0
  0
LINE
  5
49
330
1F
100
AcDbEntity
  8
0
  6
CENTER
 62
     9
100
AcDbLine
 10
-71.19499999999999
 20
0.3410793221684205
 30
0.0
 11
-71.19499999999999
 21
-11.65892067783161
 31
0.0
  0
LINE
  5
4A
330
1F
100
AcDbEntity
  8
0
  6
CONTINUOUS
 62
     9
100
AcDbLine
 10
-15.64499999999995
 20
-8.15892067783158
 30
0.0
 11
-14.44499999999996
 21
-8.15892067783158
 31
0.0
  0
LINE
  5
4B
330
1F
100
AcDbEntity
  8
0
  6
CONTINUOUS
 62
     9
100
AcDbLine
 10
-15.64499999999995
 20
-3.158920677831594
 30
0.0
 11
-14.44499999999996
 21
-3.158920677831594
 31
0.0
  0
LINE
  5
4C
330
1F
100
AcDbEntity
  8
0
  6
CONTINUOUS
 62
     9
100
AcDbLine
 10
76.80500000000005
 20
26.34107932216842
 30
0.0
 11
76.80500000000005
 21
-1.168920677831581
 31
0.0
  0
LINE
  5
4D
330
1F
100
AcDbEntity
  8
0
  6
DIVIDE
 62
     9
100
AcDbLine
 10
0.5050000000000487
 20
-0.6589206778315795
 30
0.0
 11
0.5050000000000487
 21
-10.65892067783158
 31
0.0
  0
LINE
  5
4E
330
1F
100
AcDbEntity
  8
0
  6
DIVIDE
 62
     9
100
AcDbLine
 10
22.10500000000005
 20
-0.6589206778315795
 30
0.0
 11
22.10500000000005
 21
-10.65892067783158
 31
0.0
  0
LINE
  5
4F
330
1F
100
AcDbEntity
  8
0
  6
CONTINUOUS
 62
     9
100
AcDbLine
 10
-21.19499999999997
 20
-19.65892067783158
 30
0.0
 11
-15.20735781755682
 21
-8.40892067783158
 31
0.0
  0
INSERT
  5
56
330
1F
100
AcDbEntity
  8
0
 62
     9
100
AcDbBlockReference
  2
_OPEN30
 10
-15.20735781755682
 20
-8.40892067783158
 30
0.0
 41
3.000002787824364
 42
2.999989273978464
 50
61.97653546662728
  0
LINE
  5
57
330
1F
100
AcDbEntity
  8
0
  6
CONTINUOUS
 62
     9
100
AcDbLine
 10
69.62344534875912
 20
9.841079322168426
 30
0.0
 11
57.64462720371908
 21
-2.358927249370938
 31
0.0
  0
INSERT
  5
5D
330
1F
100
AcDbEntity
  8
0
 62
     9
100
AcDbBlockReference
  2
_DOT
 10
57.64462720371908
 20
-2.358927249370938
 30
0.0
 41
2.5
 42
2.5
 50
225.5241284453823
  0
LINE
  5
5E
330
1F
100
AcDbEntity
  8
0
  6
CONTINUOUS
 62
     9
100
AcDbLine
 10
26.80500000000005
 20
-19.65892067783158
 30
0.0
 11
33.15402047433796
 21
-8.926870130506792
 31
0.0
  0
INSERT
  5
5F
330
1F
100
AcDbEntity
  8
0
 62
     9
100
AcDbBlockReference
  2
_DOT
 10
33.15402047433796
 20
-8.926870130506792
 30
0.0
 41
2.5
 42
2.5
 50
59.39168072097981
  0
LINE
  5
60
330
1F
100
AcDbEntity
  8
0
  6
CONTINUOUS
 62
     9
100
AcDbLine
 10
5.205000000000048
 20
-28.5759139538201
 30
0.0
 11
9.675576694038746
 21
-7.887481978311288
 31
0.0
  0
INSERT
  5
61
330
1F
100
AcDbEntity
  8
0
 62
     9
100
AcDbBlockReference
  2
_DOT
 10
9.675576694038746
 20
-7.887481978311288
 30
0.0
 41
2.5
 42
2.5
 50
77.80640460176211
  0
LINE
  5
62
330
1F
100
AcDbEntity
  8
0
  6
CONTINUOUS
 62
     3
100
AcDbLine
 10
-1.194999999999951
 20
-10.65892067783158
 30
0.0
 11
-0.8949999999999534
 21
-10.65892067783158
 31
0.0
  0
LINE
  5
63
330
1F
100
AcDbEntity
  8
0
  6
CONTINUOUS
 62
     3
100
AcDbLine
 10
-1.294999999999952
 20
-5.65892067783158
 30
0.0
 11
-1.294999999999952
 21
-10.55892067783159
 31
0.0
  0
LINE
  5
64
330
1F
100
AcDbEntity
  8
0
  6
CONTINUOUS
 62
     3
100
AcDbLine
 10
-0.794999999999952
 20
-10.55892067783159
 30
0.0
 11
-0.8949999999999534
 21
-10.65892067783158
 31
0.0
  0
LINE
  5
65
330
1F
100
AcDbEntity
  8
0
  6
CONTINUOUS
 62
     3
100
AcDbLine
 10
-0.794999999999952
 20
-10.55892067783159
 30
0.0
 11
-0.794999999999952
 21
-0.758920677831588
 31
0.0
  0
LINE
  5
66
330
1F
100
AcDbEntity
  8
0
  6
CONTINUOUS
 62
     3
100
AcDbLine
 10
-1.294999999999952
 20
-5.65892067783158
 30
0.0
 11
-1.294999999999952
 21
-0.758920677831588
 31
0.0
  0
LINE
  5
67
330
1F
100
AcDbEntity
  8
0
  6
CONTINUOUS
 62
     3
100
AcDbLine
 10
-1.194999999999951
 20
-0.6589206778315795
 30
0.0
 11
-0.8949999999999534
 21
-0.6589206778315795
 31
0.0
  0
LINE
  5
68
330
1F
100
AcDbEntity
  8
0
  6
CONTINUOUS
 62
     3
100
AcDbLine
 10
-0.8949999999999534
 20
-0.6589206778315795
 30
0.0
 11
-0.794999999999952
 21
-0.758920677831588
 31
0.0
  0
LINE
  5
69
330
1F
100
AcDbEntity
  8
0
  6
CONTINUOUS
 62
     3
100
AcDbLine
 10
-1.194999999999951
 20
-10.65892067783158
 30
0.0
 11
-1.294999999999952
 21
-10.55892067783159
 31
0.0
  0
LINE
  5
6A
330
1F
100
AcDbEntity
  8
0
  6
CONTINUOUS
 62
     3
100
AcDbLine
 10
-1.194999999999951
 20
-0.6589206778315795
 30
0.0
 11
-1.294999999999952
 21
-0.758920677831588
 31
0.0
  0
LINE
  5
6B
330
1F
100
AcDbEntity
  8
0
  6
CONTINUOUS
 62
     3
100
AcDbLine
 10
-1.294999999999952
 20
-10.45892067783159
 30
0.0
 11
-1.294999999999952
 21
-5.65892067783158
 31
0.0
  0
LINE
  5
6C
330
1F
100
AcDbEntity
  8
0
  6
CONTINUOUS
 62
     3
100
AcDbLine
 10
-1.294999999999952
 20
-5.65892067783158
 30
0.0
 11
-1.294999999999952
 21
-0.8589206778315823
 31
0.0
  0
LINE
  5
6D
330
1F
100
AcDbEntity
  8
0
  6
CONTINUOUS
 62
     3
100
AcDbLine
 10
-16.29499999999996
 20
-4.65892067783158
 30
0.0
 11
-16.29499999999996
 21
-6.65892067783158
 31
0.0
  0
LINE
  5
6E
330
1F
100
AcDbEntity
  8
0
  6
CONTINUOUS
 62
     3
100
AcDbLine
 10
-23.19499999999997
 20
-6.558920677831585
 30
0.0
 11
-23.19499999999997
 21
-5.15892067783158
 31
0.0
  0
LINE
  5
6F
330
1F
100
AcDbEntity
  8
0
  6
CONTINUOUS
 62
     3
100
AcDbLine
 10
-23.19499999999997
 20
-5.15892067783158
 30
0.0
 11
-18.19499999999996
 21
-5.15892067783158
 31
0.0
  0
LINE
  5
70
330
1F
100
AcDbEntity
  8
0
  6
CONTINUOUS
 62
     3
100
AcDbLine
 10
-18.19499999999996
 20
-5.15892067783158
 30
0.0
 11
-18.19499999999996
 21
-4.65892067783158
 31
0.0
  0
LINE
  5
71
330
1F
100
AcDbEntity
  8
0
  6
CONTINUOUS
 62
     3
100
AcDbLine
 10
-18.19499999999996
 20
-4.65892067783158
 30
0.0
 11
-16.29499999999996
 21
-4.65892067783158
 31
0.0
  0
LINE
  5
72
330
1F
100
AcDbEntity
  8
0
  6
CONTINUOUS
 62
     3
100
AcDbLine
 10
-23.09499999999996
 20
-6.65892067783158
 30
0.0
 11
-16.29499999999996
 21
-6.65892067783158
 31
0.0
  0
LINE
  5
73
330
1F
100
AcDbEntity
  8
0
  6
CONTINUOUS
 62
     3
100
AcDbLine
 10
-23.19499999999997
 20
-6.558920677831585
 30
0.0
 11
-23.09499999999996
 21
-6.65892067783158
 31
0.0
  0
LINE
  5
74
330
1F
100
AcDbEntity
  8
0
  6
CONTINUOUS
 62
     3
100
AcDbLine
 10
-23.09499999999996
 20
-6.65892067783158
 30
0.0
 11
-23.09499999999996
 21
-5.15892067783158
 31
0.0
  0
LINE
  5
75
330
1F
100
AcDbEntity
  8
0
  6
CONTINUOUS
 62
     3
100
AcDbLine
 10
-16.29499999999996
 20
-4.15892067783158
 30
0.0
 11
-15.89499999999996
 21
-4.15892067783158
 31
0.0
  0
LINE
  5
76
330
1F
100
AcDbEntity
  8
0
  6
CONTINUOUS
 62
     3
100
AcDbLine
 10
-16.29499999999997
 20
-7.15892067783158
 30
0.0
 11
-16.29499999999996
 21
-4.15892067783158
 31
0.0
  0
LINE
  5
77
330
1F
100
AcDbEntity
  8
0
  6
CONTINUOUS
 62
     3
100
AcDbLine
 10
-15.89499999999996
 20
-7.458920677831577
 30
0.0
 11
-15.89499999999996
 21
-3.90892067783158
 31
0.0
  0
LINE
  5
78
330
1F
100
AcDbEntity
  8
0
  6
CONTINUOUS
 62
     3
100
AcDbLine
 10
-15.89499999999996
 20
-7.15892067783158
 30
0.0
 11
-16.29499999999997
 21
-7.15892067783158
 31
0.0
  0
LINE
  5
79
330
1F
100
AcDbEntity
  8
0
  6
CONTINUOUS
 62
     3
100
AcDbLine
 10
-15.89499999999996
 20
-3.90892067783158
 30
0.0
 11
-15.64499999999996
 21
-3.90892067783158
 31
0.0
  0
LINE
  5
7A
330
1F
100
AcDbEntity
  8
0
  6
CONTINUOUS
 62
     3
100
AcDbLine
 10
-15.89499999999996
 20
-7.458920677831577
 30
0.0
 11
-15.64499999999996
 21
-7.458920677831577
 31
0.0
  0
LINE
  5
7B
330
1F
100
AcDbEntity
  8
0
  6
CONTINUOUS
 62
     3
100
AcDbLine
 10
-1.294999999999952
 20
-5.65892067783158
 30
0.0
 11
-1.294999999999952
 21
-10.55892067783159
 31
0.0
  0
LINE
  5
7C
330
1F
100
AcDbEntity
  8
0
  6
CONTINUOUS
 62
     3
100
AcDbLine
 10
-1.294999999999952
 20
-0.758920677831588
 30
0.0
 11
-1.294999999999952
 21
-5.65892067783158
 31
0.0
  0
LINE
  5
7D
330
1F
100
AcDbEntity
  8
0
  6
CONTINUOUS
 62
     3
100
AcDbLine
 10
-12.44499999999996
 20
-10.65892067783158
 30
0.0
 11
-1.494999999999948
 21
-10.65892067783158
 31
0.0
  0
LINE
  5
7E
330
1F
100
AcDbEntity
  8
0
  6
CONTINUOUS
 62
     3
100
AcDbLine
 10
-12.44499999999996
 20
-0.6589206778315795
 30
0.0
 11
-1.494999999999948
 21
-0.6589206778315795
 31
0.0
  0
LINE
  5
7F
330
1F
100
AcDbEntity
  8
0
  6
CONTINUOUS
 62
     3
100
AcDbLine
 10
-12.64499999999995
 20
-0.8589206778315823
 30
0.0
 11
-12.44499999999996
 21
-0.6589206778315795
 31
0.0
  0
LINE
  5
80
330
1F
100
AcDbEntity
  8
0
  6
CONTINUOUS
 62
     3
100
AcDbLine
 10
-12.44499999999996
 20
-10.65892067783158
 30
0.0
 11
-12.64499999999995
 21
-10.45892067783159
 31
0.0
  0
LINE
  5
81
330
1F
100
AcDbEntity
  8
0
  6
CONTINUOUS
 62
     3
100
AcDbLine
 10
-1.494999999999948
 20
-10.65892067783158
 30
0.0
 11
-1.294999999999952
 21
-10.45892067783159
 31
0.0
  0
LINE
  5
82
330
1F
100
AcDbEntity
  8
0
  6
CONTINUOUS
 62
     3
100
AcDbLine
 10
-1.494999999999948
 20
-0.6589206778315795
 30
0.0
 11
-1.294999999999952
 21
-0.8589206778315823
 31
0.0
  0
LINE
  5
83
330
1F
100
AcDbEntity
  8
0
  6
CONTINUOUS
 62
     3
100
AcDbLine
 10
-13.64499999999995
 20
-10.55892067783159
 30
0.0
 11
-13.64499999999995
 21
-0.758920677831588
 31
0.0
  0
LINE
  5
84
330
1F
100
AcDbEntity
  8
0
  6
CONTINUOUS
 62
     3
100
AcDbLine
 10
-15.64499999999995
 20
-8.40892067783158
 30
0.0
 11
-14.44499999999996
 21
-8.40892067783158
 31
0.0
  0
LINE
  5
85
330
1F
100
AcDbEntity
  8
0
  6
CONTINUOUS
 62
     3
100
AcDbLine
 10
-14.44499999999996
 20
-8.108920677831582
 30
0.0
 11
-14.14499999999995
 21
-8.108920677831582
 31
0.0
  0
LINE
  5
86
330
1F
100
AcDbEntity
  8
0
  6
CONTINUOUS
 62
     3
100
AcDbLine
 10
-14.14499999999995
 20
-8.65892067783158
 30
0.0
 11
-13.64499999999995
 21
-8.65892067783158
 31
0.0
  0
LINE
  5
87
330
1F
100
AcDbEntity
  8
0
  6
CONTINUOUS
 62
     3
100
AcDbLine
 10
-13.54499999999995
 20
-10.65892067783158
 30
0.0
 11
-12.74499999999996
 21
-10.65892067783158
 31
0.0
  0
LINE
  5
88
330
1F
100
AcDbEntity
  8
0
  6
CONTINUOUS
 62
     3
100
AcDbLine
 10
-13.54499999999995
 20
-10.65892067783158
 30
0.0
 11
-13.64499999999995
 21
-10.55892067783159
 31
0.0
  0
LINE
  5
89
330
1F
100
AcDbEntity
  8
0
  6
CONTINUOUS
 62
     3
100
AcDbLine
 10
-14.14499999999995
 20
-2.65892067783158
 30
0.0
 11
-13.64499999999995
 21
-2.65892067783158
 31
0.0
  0
LINE
  5
8A
330
1F
100
AcDbEntity
  8
0
  6
CONTINUOUS
 62
     3
100
AcDbLine
 10
-14.14499999999995
 20
-2.65892067783158
 30
0.0
 11
-14.14499999999995
 21
-8.65892067783158
 31
0.0
  0
LINE
  5
8B
330
1F
100
AcDbEntity
  8
0
  6
CONTINUOUS
 62
     3
100
AcDbLine
 10
-15.64499999999995
 20
-2.908920677831594
 30
0.0
 11
-14.44499999999996
 21
-2.908920677831594
 31
0.0
  0
LINE
  5
8C
330
1F
100
AcDbEntity
  8
0
  6
CONTINUOUS
 62
     3
100
AcDbLine
 10
-14.44499999999996
 20
-3.208920677831577
 30
0.0
 11
-14.14499999999995
 21
-3.208920677831577
 31
0.0
  0
LINE
  5
8D
330
1F
100
AcDbEntity
  8
0
  6
CONTINUOUS
 62
     3
100
AcDbLine
 10
-14.44499999999996
 20
-2.908920677831594
 30
0.0
 11
-14.44499999999996
 21
-8.40892067783158
 31
0.0
  0
LINE
  5
8E
330
1F
100
AcDbEntity
  8
0
  6
CONTINUOUS
 62
     3
100
AcDbLine
 10
-12.74499999999996
 20
-0.6589206778315795
 30
0.0
 11
-13.54499999999995
 21
-0.6589206778315795
 31
0.0
  0
LINE
  5
8F
330
1F
100
AcDbEntity
  8
0
  6
CONTINUOUS
 62
     3
100
AcDbLine
 10
-13.54499999999995
 20
-0.6589206778315795
 30
0.0
 11
-13.64499999999995
 21
-0.758920677831588
 31
0.0
  0
LINE
  5
90
330
1F
100
AcDbEntity
  8
0
  6
CONTINUOUS
 62
     3
100
AcDbLine
 10
-12.64499999999995
 20
-0.758920677831588
 30
0.0
 11
-12.64499999999995
 21
-10.55892067783159
 31
0.0
  0
LINE
  5
91
330
1F
100
AcDbEntity
  8
0
  6
CONTINUOUS
 62
     3
100
AcDbLine
 10
-12.74499999999996
 20
-10.65892067783158
 30
0.0
 11
-12.64499999999995
 21
-10.55892067783159
 31
0.0
  0
LINE
  5
92
330
1F
100
AcDbEntity
  8
0
  6
CONTINUOUS
 62
     3
100
AcDbLine
 10
-12.74499999999996
 20
-0.6589206778315795
 30
0.0
 11
-12.64499999999995
 21
-0.758920677831588
 31
0.0
  0
LINE
  5
93
330
1F
100
AcDbEntity
  8
0
  6
CONTINUOUS
 62
     3
100
AcDbLine
 10
-15.64499999999995
 20
-2.908920677831594
 30
0.0
 11
-15.64499999999995
 21
-8.40892067783158
 31
0.0
  0
CIRCLE
  5
94
330
1F
100
AcDbEntity
  8
0
  6
CONTINUOUS
 62
     3
100
AcDbCircle
 10
-71.19499999999999
 20
-5.658920677831594
 30
0.0
 40
1.0
  0
CIRCLE
  5
95
330
1F
100
AcDbEntity
  8
0
  6
CONTINUOUS
 62
     3
100
AcDbCircle
 10
-71.19499999999999
 20
-5.658920677831594
 30
0.0
 40
2.5
  0
CIRCLE
  5
96
330
1F
100
AcDbEntity
  8
0
  6
CONTINUOUS
 62
     3
100
AcDbCircle
 10
-71.19499999999999
 20
-5.658920677831594
 30
0.0
 40
3.0
  0
LINE
  5
97
330
1F
100
AcDbEntity
  8
0
  6
CONTINUOUS
 62
     3
100
AcDbLine
 10
-72.06102540378441
 20
-5.158920677831594
 30
0.0
 11
-70.32897459621555
 21
-5.158920677831594
 31
0.0
  0
ARC
  5
98
330
1F
100
AcDbEntity
  8
0
  6
CONTINUOUS
 62
     3
100
AcDbCircle
 10
-71.19499999999999
 20
-5.658920677831594
 30
0.0
 40
2.0
100
AcDbArc
 50
195.0000000000001
 51
525.0
  0
LINE
  5
99
330
1F
100
AcDbEntity
  8
0
  6
CONTINUOUS
 62
     3
100
AcDbLine
 10
-73.12685165257813
 20
-5.141282587626554
 30
0.0
 11
-72.16092582628906
 21
-5.400101632729067
 31
0.0
  0
LINE
  5
9A
330
1F
100
AcDbEntity
  8
0
  6
CONTINUOUS
 62
     3
100
AcDbLine
 10
-71.19499999999999
 20
-4.658920677831594
 30
0.0
 11
-71.19499999999999
 21
-4.158920677831594
 31
0.0
  0
LINE
  5
9B
330
1F
100
AcDbEntity
  8
0
  6
CONTINUOUS
 62
     3
100
AcDbLine
 10
-70.32897459621555
 20
-5.158920677831594
 30
0.0
 11
-69.89596189432334
 21
-4.908920677831594
 31
0.0
  0
LINE
  5
9C
330
1F
100
AcDbEntity
  8
0
  6
CONTINUOUS
 62
     3
100
AcDbLine
 10
-70.32897459621555
 20
-6.158920677831594
 30
0.0
 11
-69.89596189432331
 21
-6.408920677831594
 31
0.0
  0
LINE
  5
9D
330
1F
100
AcDbEntity
  8
0
  6
CONTINUOUS
 62
     3
100
AcDbLine
 10
-71.19499999999999
 20
-7.658920677831594
 30
0.0
 11
-71.19499999999999
 21
-6.658920677831594
 31
0.0
  0
ARC
  5
9E
330
1F
100
AcDbEntity
  8
0
  6
CONTINUOUS
 62
     3
100
AcDbCircle
 10
-71.19499999999999
 20
-5.658920677831594
 30
0.0
 40
1.5
100
AcDbArc
 50
29.99999999999977
 51
89.99999999999999
  0
LINE
  5
9F
330
1F
100
AcDbEntity
  8
0
  6
CONTINUOUS
 62
     3
100
AcDbLine
 10
-73.12685165257813
 20
-6.176558768036633
 30
0.0
 11
-72.16092582628906
 21
-5.917739722934121
 31
0.0
  0
ARC
  5
A0
330
1F
100
AcDbEntity
  8
0
  6
CONTINUOUS
 62
     3
100
AcDbCircle
 10
-71.19499999999999
 20
-5.658920677831594
 30
0.0
 40
1.5
100
AcDbArc
 50
269.9999999999999
 51
330.0000000000002
  0
ARC
  5
A1
330
1F
100
AcDbEntity
  8
0
  6
CONTINUOUS
 62
     3
100
AcDbCircle
 10
-71.19499999999999
 20
-5.658920677831594
 30
0.0
 40
1.75
100
AcDbArc
 50
165.0
 51
195.0
  0
CIRCLE
  5
A2
330
1F
100
AcDbEntity
  8
0
  6
CONTINUOUS
 62
     3
100
AcDbCircle
 10
-71.19499999999999
 20
-5.658920677831594
 30
0.0
 40
4.300000000000011
  0
CIRCLE
  5
A3
330
1F
100
AcDbEntity
  8
0
  6
CONTINUOUS
 62
     3
100
AcDbCircle
 10
-71.19499999999997
 20
-5.65892067783158
 30
0.0
 40
5.0
  0
LINE
  5
A4
330
1F
100
AcDbEntity
  8
0
  6
CONTINUOUS
 62
     3
100
AcDbLine
 10
23.30500000000005
 20
-10.35892524135539
 30
0.0
 11
23.30500000000005
 21
-0.6589206778315795
 31
0.0
  0
LINE
  5
A5
330
1F
100
AcDbEntity
  8
0
  6
CONTINUOUS
 62
     3
100
AcDbLine
 10
23.30500000000005
 20
-1.258920677831581
 30
0.0
 11
23.65500000000005
 21
-1.258920677831581
 31
0.0
  0
LINE
  5
A6
330
1F
100
AcDbEntity
  8
0
  6
CONTINUOUS
 62
     3
100
AcDbLine
 10
23.30500000000005
 20
-10.05892067783158
 30
0.0
 11
23.65500000000005
 21
-10.05892067783158
 31
0.0
  0
LINE
  5
A7
330
1F
100
AcDbEntity
  8
0
  6
CONTINUOUS
 62
     3
100
AcDbLine
 10
23.80500000000005
 20
-1.40892067783158
 30
0.0
 11
23.65500000000005
 21
-1.258920677831581
 31
0.0
  0
LINE
  5
A8
330
1F
100
AcDbEntity
  8
0
  6
CONTINUOUS
 62
     3
100
AcDbLine
 10
23.80500000000005
 20
-9.90892067783158
 30
0.0
 11
23.65500000000005
 21
-10.05892067783158
 31
0.0
  0
LINE
  5
A9
330
1F
100
AcDbEntity
  8
0
  6
CONTINUOUS
 62
     3
100
AcDbLine
 10
-0.6949999999999506
 20
-0.6589206778315795
 30
0.0
 11
23.30500000000005
 21
-0.6589206778315795
 31
0.0
  0
LINE
  5
AA
330
1F
100
AcDbEntity
  8
0
  6
CONTINUOUS
 62
     3
100
AcDbLine
 10
23.30500000000005
 20
-10.65892067783158
 30
0.0
 11
-0.6949999999999506
 21
-10.65892067783158
 31
0.0
  0
LINE
  5
AB
330
1F
100
AcDbEntity
  8
0
  6
CONTINUOUS
 62
     3
100
AcDbLine
 10
-0.6949999999999506
 20
-0.6589206778315795
 30
0.0
 11
-0.794999999999952
 21
-0.7589206778315774
 31
0.0
  0
LINE
  5
AC
330
1F
100
AcDbEntity
  8
0
  6
CONTINUOUS
 62
     3
100
AcDbLine
 10
-0.6949999999999506
 20
-10.65892067783158
 30
0.0
 11
-0.794999999999952
 21
-10.55892067783158
 31
0.0
  0
LINE
  5
AD
330
1F
100
AcDbEntity
  8
0
  6
CONTINUOUS
 62
     3
100
AcDbLine
 10
23.30500000000005
 20
-10.65892067783158
 30
0.0
 11
23.30500000000005
 21
-5.65892067783158
 31
0.0
  0
LINE
  5
AE
330
1F
100
AcDbEntity
  8
0
  6
CONTINUOUS
 62
     3
100
AcDbLine
 10
-0.794999999999952
 20
-0.7589206778315774
 30
0.0
 11
-0.794999999999952
 21
-10.55892067783158
 31
0.0
  0
LINE
  5
AF
330
1F
100
AcDbEntity
  8
0
  6
CONTINUOUS
 62
     3
100
AcDbLine
 10
23.80500000000005
 20
-9.90892067783158
 30
0.0
 11
23.80500000000005
 21
-1.40892067783158
 31
0.0
  0
LINE
  5
B0
330
1F
100
AcDbEntity
  8
0
  6
CONTINUOUS
 62
     3
100
AcDbLine
 10
71.80500000000005
 20
-1.898920677831578
 30
0.0
 11
71.80500000000005
 21
-2.81892067783158
 31
0.0
  0
LINE
  5
B1
330
1F
100
AcDbEntity
  8
0
  6
CONTINUOUS
 62
     3
100
AcDbLine
 10
23.80500000000005
 20
-1.898920677831578
 30
0.0
 11
71.80500000000005
 21
-1.898920677831578
 31
0.0
  0
LINE
  5
B2
330
1F
100
AcDbEntity
  8
0
  6
CONTINUOUS
 62
     3
100
AcDbLine
 10
71.80500000000005
 20
-2.81892067783158
 30
0.0
 11
23.80500000000005
 21
-2.81892067783158
 31
0.0
  0
LINE
  5
B3
330
1F
100
AcDbEntity
  8
0
  6
CONTINUOUS
 62
     3
100
AcDbLine
 10
71.80500000000005
 20
-8.498920677831576
 30
0.0
 11
71.80500000000005
 21
-9.418920677831578
 31
0.0
  0
LINE
  5
B4
330
1F
100
AcDbEntity
  8
0
  6
CONTINUOUS
 62
     3
100
AcDbLine
 10
23.80500000000005
 20
-8.498920677831576
 30
0.0
 11
71.80500000000005
 21
-8.498920677831576
 31
0.0
  0
LINE
  5
B5
330
1F
100
AcDbEntity
  8
0
  6
CONTINUOUS
 62
     3
100
AcDbLine
 10
71.80500000000005
 20
-9.418920677831578
 30
0.0
 11
23.80500000000005
 21
-9.418920677831578
 31
0.0
  0
LINE
  5
B6
330
1F
100
AcDbEntity
  8
0
  6
CONTINUOUS
 62
     3
100
AcDbLine
 10
71.80500000000005
 20
-2.168920677831578
 30
0.0
 11
76.80500000000005
 21
-2.168920677831578
 31
0.0
  0
LINE
  5
B7
330
1F
100
AcDbEntity
  8
0
  6
CONTINUOUS
 62
     3
100
AcDbLine
 10
71.80500000000005
 20
-2.54892067783158
 30
0.0
 11
76.80500000000005
 21
-2.54892067783158
 31
0.0
  0
LINE
  5
B8
330
1F
100
AcDbEntity
  8
0
  6
CONTINUOUS
 62
     3
100
AcDbLine
 10
71.80500000000005
 20
-8.768920677831575
 30
0.0
 11
76.80500000000005
 21
-8.768920677831575
 31
0.0
  0
LINE
  5
B9
330
1F
100
AcDbEntity
  8
0
  6
CONTINUOUS
 62
     3
100
AcDbLine
 10
71.80500000000005
 20
-9.148920677831578
 30
0.0
 11
76.80500000000005
 21
-9.148920677831578
 31
0.0
  0
LINE
  5
BA
330
1F
100
AcDbEntity
  8
0
  6
CONTINUOUS
 62
     3
100
AcDbLine
 10
76.80500000000005
 20
-2.168920677831578
 30
0.0
 11
76.80500000000005
 21
-2.54892067783158
 31
0.0
  0
LINE
  5
BB
330
1F
100
AcDbEntity
  8
0
  6
CONTINUOUS
 62
     3
100
AcDbLine
 10
76.80500000000005
 20
-8.768920677831575
 30
0.0
 11
76.80500000000005
 21
-9.148920677831578
 31
0.0
  0
LINE
  5
BC
330
1F
100
AcDbEntity
  8
0
  6
CONTINUOUS
 62
     9
100
AcDbLine
 10
-24.19499999999997
 20
-5.15892067783158
 30
0.0
 11
-33.19499999999997
 21
-5.15892067783158
 31
0.0
  0
LINE
  5
BD
330
1F
100
AcDbEntity
  8
0
  6
CONTINUOUS
 62
     9
100
AcDbLine
 10
-24.09499999999996
 20
-6.65892067783158
 30
0.0
 11
-33.19499999999997
 21
-6.65892067783158
 31
0.0
  0
LINE
  5
BE
330
1F
100
AcDbEntity
  8
0
  6
CONTINUOUS
 62
     9
100
AcDbLine
 10
-32.19499999999997
 20
-6.65892067783158
 30
0.0
 11
-32.19499999999997
 21
-5.15892067783158
 31
0.0
  0
LINE
  5
BF
330
1F
100
AcDbEntity
  8
0
  6
CONTINUOUS
 62
     9
100
AcDbLine
 10
-24.09499999999996
 20
-6.65892067783158
 30
0.0
 11
-41.19499999999997
 21
-6.65892067783158
 31
0.0
  0
LINE
  5
C0
330
1F
100
AcDbEntity
  8
0
  6
CONTINUOUS
 62
     9
100
AcDbLine
 10
-19.19499999999996
 20
-4.65892067783158
 30
0.0
 11
-41.19499999999997
 21
-4.65892067783158
 31
0.0
  0
LINE
  5
C1
330
1F
100
AcDbEntity
  8
0
  6
CONTINUOUS
 62
     9
100
AcDbLine
 10
-40.19499999999997
 20
-6.65892067783158
 30
0.0
 11
-40.19499999999997
 21
-4.65892067783158
 31
0.0
  0
LINE
  5
C2
330
1F
100
AcDbEntity
  8
0
  6
CONTINUOUS
 62
     9
100
AcDbLine
 10
-15.14499999999995
 20
-8.65892067783158
 30
0.0
 11
-49.19499999999997
 21
-8.65892067783158
 31
0.0
  0
LINE
  5
C3
330
1F
100
AcDbEntity
  8
0
  6
CONTINUOUS
 62
     9
100
AcDbLine
 10
-15.14499999999995
 20
-2.65892067783158
 30
0.0
 11
-49.19499999999997
 21
-2.65892067783158
 31
0.0
  0
LINE
  5
C4
330
1F
100
AcDbEntity
  8
0
  6
CONTINUOUS
 62
     9
100
AcDbLine
 10
-48.19499999999997
 20
-8.65892067783158
 30
0.0
 11
-48.19499999999997
 21
-2.65892067783158
 31
0.0
  0
LINE
  5
C5
330
1F
100
AcDbEntity
  8
0
  6
CONTINUOUS
 62
     9
100
AcDbLine
 10
-14.54499999999995
 20
-10.65892067783158
 30
0.0
 11
-57.19499999999997
 21
-10.65892067783158
 31
0.0
  0
LINE
  5
C6
330
1F
100
AcDbEntity
  8
0
  6
CONTINUOUS
 62
     9
100
AcDbLine
 10
-14.54499999999995
 20
-0.6589206778315795
 30
0.0
 11
-57.19499999999997
 21
-0.6589206778315795
 31
0.0
  0
LINE
  5
C7
330
1F
100
AcDbEntity
  8
0
  6
CONTINUOUS
 62
     9
100
AcDbLine
 10
-23.19499999999997
 20
-4.15892067783158
 30
0.0
 11
-23.19499999999997
 21
17.34107932216842
 31
0.0
  0
LINE
  5
C8
330
1F
100
AcDbEntity
  8
0
  6
CONTINUOUS
 62
     9
100
AcDbLine
 10
-18.19499999999996
 20
-3.65892067783158
 30
0.0
 11
-18.19499999999996
 21
15.34107932216842
 31
0.0
  0
LINE
  5
C9
330
1F
100
AcDbEntity
  8
0
  6
CONTINUOUS
 62
     9
100
AcDbLine
 10
-23.19499999999997
 20
14.34107932216842
 30
0.0
 11
-18.19499999999996
 21
14.34107932216842
 31
0.0
  0
LINE
  5
CA
330
1F
100
AcDbEntity
  8
0
  6
CONTINUOUS
 62
     9
100
AcDbLine
 10
-14.14499999999995
 20
-9.65892067783158
 30
0.0
 11
-14.14499999999995
 21
-20.65892067783158
 31
0.0
  0
LINE
  5
CB
330
1F
100
AcDbEntity
  8
0
  6
CONTINUOUS
 62
     9
100
AcDbLine
 10
-13.64499999999995
 20
-11.55892067783157
 30
0.0
 11
-13.64499999999995
 21
-20.65892067783158
 31
0.0
  0
LINE
  5
CC
330
1F
100
AcDbEntity
  8
0
  6
CONTINUOUS
 62
     9
100
AcDbLine
 10
-14.14499999999995
 20
-19.65892067783158
 30
0.0
 11
-13.64499999999995
 21
-19.65892067783158
 31
0.0
  0
LINE
  5
CD
330
1F
100
AcDbEntity
  8
0
  6
CONTINUOUS
 62
     9
100
AcDbLine
 10
-13.64499999999995
 20
0.241079322168412
 30
0.0
 11
-13.64499999999995
 21
26.34107932216842
 31
0.0
  0
LINE
  5
CE
330
1F
100
AcDbEntity
  8
0
  6
CONTINUOUS
 62
     9
100
AcDbLine
 10
-0.794999999999952
 20
0.2410793221684227
 30
0.0
 11
-0.794999999999952
 21
19.34107932216842
 31
0.0
  0
LINE
  5
CF
330
1F
100
AcDbEntity
  8
0
  6
CONTINUOUS
 62
     9
100
AcDbLine
 10
23.80500000000005
 20
-0.4089206778315795
 30
0.0
 11
23.80500000000005
 21
26.34107932216842
 31
0.0
  0
LINE
  5
D0
330
1F
100
AcDbEntity
  8
0
  6
CONTINUOUS
 62
     9
100
AcDbLine
 10
-23.19499999999997
 20
-4.15892067783158
 30
0.0
 11
-23.19499999999997
 21
26.34107932216842
 31
0.0
  0
LINE
  5
D1
330
1F
100
AcDbEntity
  8
0
  6
CONTINUOUS
 62
     9
100
AcDbLine
 10
-15.64499999999995
 20
-1.908920677831594
 30
0.0
 11
-15.64499999999995
 21
26.34107932216842
 31
0.0
  0
LINE
  5
D2
330
1F
100
AcDbEntity
  8
0
  6
CONTINUOUS
 62
     9
100
AcDbLine
 10
-40.89277999999996
 20
25.34107932216842
 30
0.0
 11
-23.19499999999997
 21
25.34107932216842
 31
0.0
  0
LINE
  5
D3
330
1F
100
AcDbEntity
  8
0
  6
CONTINUOUS
 62
     9
100
AcDbLine
 10
-13.64499999999995
 20
0.241079322168412
 30
0.0
 11
-13.64499999999995
 21
26.34107932216842
 31
0.0
  0
LINE
  5
D4
330
1F
100
AcDbEntity
  8
0
  6
CONTINUOUS
 62
     9
100
AcDbLine
 10
-15.64499999999995
 20
25.34107932216842
 30
0.0
 11
-13.64499999999995
 21
25.34107932216842
 31
0.0
  0
LINE
  5
D5
330
1F
100
AcDbEntity
  8
0
  6
CONTINUOUS
 62
     9
100
AcDbLine
 10
19.80500000000005
 20
-10.65892067783158
 30
0.0
 11
19.80500000000005
 21
-0.6589206778315795
 31
0.0
  0
LINE
  5
D6
330
1F
100
AcDbEntity
  8
0
  6
CONTINUOUS
 62
     9
100
AcDbLine
 10
71.80500000000005
 20
-0.8989206778315779
 30
0.0
 11
71.80500000000005
 21
19.34107932216842
 31
0.0
  0
LINE
  5
D7
330
1F
100
AcDbEntity
  8
0
  6
CONTINUOUS
 62
     9
100
AcDbLine
 10
-21.19499999999997
 20
-19.65892067783158
 30
0.0
 11
-56.40617749952404
 21
-19.65892067783158
 31
0.0
  0
LINE
  5
D8
330
1F
100
AcDbEntity
  8
0
  6
CONTINUOUS
 62
     9
100
AcDbLine
 10
26.80500000000005
 20
9.841079322168421
 30
0.0
 11
69.62344534875912
 21
9.841079322168426
 31
0.0
  0
LINE
  5
D9
330
1F
100
AcDbEntity
  8
0
  6
CONTINUOUS
 62
     9
100
AcDbLine
 10
26.80500000000005
 20
-19.65892067783158
 30
0.0
 11
72.88893703037276
 21
-19.65892067783158
 31
0.0
  0
LINE
  5
DA
330
1F
100
AcDbEntity
  8
0
  6
CONTINUOUS
 62
     9
100
AcDbLine
 10
71.80500000000005
 20
18.34107932216842
 30
0.0
 11
76.80500000000005
 21
18.34107932216842
 31
0.0
  0
LINE
  5
DB
330
1F
100
AcDbEntity
  8
0
  6
CONTINUOUS
 62
     9
100
AcDbLine
 10
5.205000000000048
 20
-28.5759139538201
 30
0.0
 11
-41.55271892434024
 21
-28.5759139538201
 31
0.0
  0
LINE
  5
DC
330
1F
100
AcDbEntity
  8
0
  6
CONTINUOUS
 62
     9
100
AcDbLine
 10
-32.19499999999997
 20
20.24723462886477
 30
0.0
 11
-32.19499999999997
 21
-5.15892067783158
 31
0.0
  0
INSERT
  5
DD
330
1F
100
AcDbEntity
  8
0
 62
     9
100
AcDbBlockReference
  2
_OPEN30
 10
-32.19499999999997
 20
-5.15892067783158
 30
0.0
 41
3.000002787824364
 42
2.999989273978464
 50
270.0
  0
LINE
  5
DE
330
1F
100
AcDbEntity
  8
0
  6
CONTINUOUS
 62
     9
100
AcDbLine
 10
-32.19499999999997
 20
-12.9938028201717
 30
0.0
 11
-32.19499999999997
 21
-6.65892067783158
 31
0.0
  0
INSERT
  5
DF
330
1F
100
AcDbEntity
  8
0
 62
     9
100
AcDbBlockReference
  2
_OPEN30
 10
-32.19499999999997
 20
-6.65892067783158
 30
0.0
 41
3.000002787824364
 42
2.999989273978464
 50
90.0
  0
LINE
  5
E0
330
1F
100
AcDbEntity
  8
0
  6
CONTINUOUS
 62
     9
100
AcDbLine
 10
-40.19499999999997
 20
20.88393512788107
 30
0.0
 11
-40.19499999999997
 21
-4.65892067783158
 31
0.0
  0
INSERT
  5
E1
330
1F
100
AcDbEntity
  8
0
 62
     9
100
AcDbBlockReference
  2
_OPEN30
 10
-40.19499999999997
 20
-4.65892067783158
 30
0.0
 41
3.000002787824364
 42
2.999989273978464
 50
270.0
  0
LINE
  5
E2
330
1F
100
AcDbEntity
  8
0
  6
CONTINUOUS
 62
     9
100
AcDbLine
 10
-40.19499999999997
 20
-12.9938028201717
 30
0.0
 11
-40.19499999999997
 21
-6.65892067783158
 31
0.0
  0
INSERT
  5
E3
330
1F
100
AcDbEntity
  8
0
 62
     9
100
AcDbBlockReference
  2
_OPEN30
 10
-40.19499999999997
 20
-6.65892067783158
 30
0.0
 41
3.000002787824364
 42
2.999989273978464
 50
90.0
  0
LINE
  5
E4
330
1F
100
AcDbEntity
  8
0
  6
CONTINUOUS
 62
     9
100
AcDbLine
 10
-48.19499999999997
 20
-12.9938028201717
 30
0.0
 11
-48.19499999999997
 21
-8.65892067783158
 31
0.0
  0
INSERT
  5
E5
330
1F
100
AcDbEntity
  8
0
 62
     9
100
AcDbBlockReference
  2
_OPEN30
 10
-48.19499999999997
 20
-8.65892067783158
 30
0.0
 41
3.000002787824364
 42
2.999989273978464
 50
90.0
  0
LINE
  5
E6
330
1F
100
AcDbEntity
  8
0
  6
CONTINUOUS
 62
     9
100
AcDbLine
 10
-48.19499999999997
 20
2.341079322168421
 30
0.0
 11
-48.19499999999997
 21
-2.65892067783158
 31
0.0
  0
INSERT
  5
E7
330
1F
100
AcDbEntity
  8
0
 62
     9
100
AcDbBlockReference
  2
_OPEN30
 10
-48.19499999999997
 20
-2.65892067783158
 30
0.0
 41
3.000002787824364
 42
2.999989273978464
 50
270.0
  0
LINE
  5
E8
330
1F
100
AcDbEntity
  8
0
  6
CONTINUOUS
 62
     9
100
AcDbLine
 10
-10.87695136651268
 20
14.34107932216842
 30
0.0
 11
-18.19499999999996
 21
14.34107932216842
 31
0.0
  0
INSERT
  5
E9
330
1F
100
AcDbEntity
  8
0
 62
     9
100
AcDbBlockReference
  2
_OPEN30
 10
-18.19499999999996
 20
14.34107932216842
 30
0.0
 41
3.000002787824364
 42
2.999989273978464
 50
180.0
  0
LINE
  5
EA
330
1F
100
AcDbEntity
  8
0
  6
CONTINUOUS
 62
     9
100
AcDbLine
 10
-28.19499999999997
 20
14.34107932216842
 30
0.0
 11
-23.19499999999997
 21
14.34107932216842
 31
0.0
  0
INSERT
  5
EB
330
1F
100
AcDbEntity
  8
0
 62
     9
100
AcDbBlockReference
  2
_OPEN30
 10
-23.19499999999997
 20
14.34107932216842
 30
0.0
 41
3.000002787824364
 42
2.999989273978464
 50
360.0
  0
LINE
  5
EC
330
1F
100
AcDbEntity
  8
0
  6
CONTINUOUS
 62
     9
100
AcDbLine
 10
0.8527800000000489
 20
-19.65892067783158
 30
0.0
 11
-13.64499999999995
 21
-19.65892067783158
 31
0.0
  0
INSERT
  5
ED
330
1F
100
AcDbEntity
  8
0
 62
     9
100
AcDbBlockReference
  2
_OPEN30
 10
-13.64499999999995
 20
-19.65892067783158
 30
0.0
 41
3.000002787824364
 42
2.999989273978464
 50
180.0
  0
LINE
  5
EE
330
1F
100
AcDbEntity
  8
0
  6
CONTINUOUS
 62
     9
100
AcDbLine
 10
-17.88818839184378
 20
-19.65892067783158
 30
0.0
 11
-14.14499999999995
 21
-19.65892067783158
 31
0.0
  0
INSERT
  5
EF
330
1F
100
AcDbEntity
  8
0
 62
     9
100
AcDbBlockReference
  2
_OPEN30
 10
-14.14499999999995
 20
-19.65892067783158
 30
0.0
 41
3.000002787824364
 42
2.999989273978464
 50
360.0
  0
LINE
  5
F0
330
1F
100
AcDbEntity
  8
0
  6
CONTINUOUS
 62
     9
100
AcDbLine
 10
19.80500000000005
 20
4.341079322168421
 30
0.0
 11
19.80500000000005
 21
-0.6589206778315795
 31
0.0
  0
INSERT
  5
F1
330
1F
100
AcDbEntity
  8
0
 62
     9
100
AcDbBlockReference
  2
_OPEN30
 10
19.80500000000005
 20
-0.6589206778315795
 30
0.0
 41
3.000002787824364
 42
2.999989273978464
 50
270.0
  0
LINE
  5
F2
330
1F
100
AcDbEntity
  8
0
  6
CONTINUOUS
 62
     9
100
AcDbLine
 10
82.99816810148629
 20
18.34107932216842
 30
0.0
 11
76.80500000000005
 21
18.34107932216842
 31
0.0
  0
INSERT
  5
F3
330
1F
100
AcDbEntity
  8
0
 62
     9
100
AcDbBlockReference
  2
_OPEN30
 10
76.80500000000005
 20
18.34107932216842
 30
0.0
 41
3.000002787824364
 42
2.999989273978464
 50
180.0
  0
LINE
  5
F4
330
1F
100
AcDbEntity
  8
0
  6
CONTINUOUS
 62
     9
100
AcDbLine
 10
59.28321685554912
 20
18.34107932216842
 30
0.0
 11
71.80500000000005
 21
18.34107932216842
 31
0.0
  0
INSERT
  5
F5
330
1F
100
AcDbEntity
  8
0
 62
     9
100
AcDbBlockReference
  2
_OPEN30
 10
71.80500000000005
 20
18.34107932216842
 30
0.0
 41
3.000002787824364
 42
2.999989273978464
 50
360.0
  0
LINE
  5
F6
330
1F
100
AcDbEntity
  8
0
  6
CONTINUOUS
 62
     9
100
AcDbLine
 10
19.80500000000005
 20
-27.5759139538201
 30
0.0
 11
19.80500000000005
 21
-10.65892067783158
 31
0.0
  0
INSERT
  5
F7
330
1F
100
AcDbEntity
  8
0
 62
     9
100
AcDbBlockReference
  2
_OPEN30
 10
19.80500000000005
 20
-10.65892067783158
 30
0.0
 41
3.000002787824364
 42
2.999989273978464
 50
90.0
  0
LINE
  5
F8
330
1F
100
AcDbEntity
  8
0
  6
CONTINUOUS
 62
     9
100
AcDbLine
 10
-56.19499999999997
 20
-10.65892067783158
 30
0.0
 11
-56.19499999999997
 21
-0.6589206778315795
 31
0.0
  0
INSERT
  5
F9
330
1F
100
AcDbEntity
  8
0
 62
     9
100
AcDbBlockReference
  2
_OPEN30
 10
-56.19499999999997
 20
-10.65892067783158
 30
0.0
 41
3.000002787824364
 42
2.999989273978464
 50
270.0
  0
INSERT
  5
FA
330
1F
100
AcDbEntity
  8
0
 62
     9
100
AcDbBlockReference
  2
_OPEN30
 10
-56.19499999999997
 20
-0.6589206778315795
 30
0.0
 41
3.000002787824364
 42
2.999989273978464
 50
90.0
  0
LINE
  5
FB
330
1F
100
AcDbEntity
  8
0
  6
CONTINUOUS
 62
     9
100
AcDbLine
 10
-0.794999999999952
 20
18.34107932216842
 30
0.0
 11
23.80500000000005
 21
18.34107932216842
 31
0.0
  0
INSERT
  5
FC
330
1F
100
AcDbEntity
  8
0
 62
     9
100
AcDbBlockReference
  2
_OPEN30
 10
-0.794999999999952
 20
18.34107932216842
 30
0.0
 41
3.000002787824364
 42
2.999989273978464
 50
180.0
  0
INSERT
  5
FD
330
1F
100
AcDbEntity
  8
0
 62
     9
100
AcDbBlockReference
  2
_OPEN30
 10
23.80500000000005
 20
18.34107932216842
 30
0.0
 41
3.000002787824364
 42
2.999989273978464
 50
360.0
  0
LINE
  5
FE
330
1F
100
AcDbEntity
  8
0
  6
CONTINUOUS
 62
     9
100
AcDbLine
 10
-23.19499999999997
 20
25.34107932216842
 30
0.0
 11
-15.64499999999995
 21
25.34107932216842
 31
0.0
  0
INSERT
  5
FF
330
1F
100
AcDbEntity
  8
0
 62
     9
100
AcDbBlockReference
  2
_OPEN30
 10
-23.19499999999997
 20
25.34107932216842
 30
0.0
 41
3.000002787824364
 42
2.999989273978464
 50
180.0
  0
INSERT
  5
100
330
1F
100
AcDbEntity
  8
0
 62
     9
100
AcDbBlockReference
  2
_OPEN30
 10
-15.64499999999995
 20
25.34107932216842
 30
0.0
 41
3.000002787824364
 42
2.999989273978464
 50
360.0
  0
LINE
  5
101
330
1F
100
AcDbEntity
  8
0
  6
CONTINUOUS
 62
     9
100
AcDbLine
 10
-13.64499999999995
 20
25.34107932216842
 30
0.0
 11
23.80500000000005
 21
25.34107932216842
 31
0.0
  0
INSERT
  5
102
330
1F
100
AcDbEntity
  8
0
 62
     9
100
AcDbBlockReference
  2
_OPEN30
 10
-13.64499999999995
 20
25.34107932216842
 30
0.0
 41
3.000002787824364
 42
2.999989273978464
 50
180.0
  0
INSERT
  5
103
330
1F
100
AcDbEntity
  8
0
 62
     9
100
AcDbBlockReference
  2
_OPEN30
 10
23.80500000000005
 20
25.34107932216842
 30
0.0
 41
3.000002787824364
 42
2.999989273978464
 50
360.0
  0
LINE
  5
104
330
1F
100
AcDbEntity
  8
0
  6
CONTINUOUS
 62
     9
100
AcDbLine
 10
23.80500000000005
 20
25.34107932216842
 30
0.0
 11
76.80500000000005
 21
25.34107932216842
 31
0.0
  0
INSERT
  5
105
330
1F
100
AcDbEntity
  8
0
 62
     9
100
AcDbBlockReference
  2
_OPEN30
 10
23.80500000000005
 20
25.34107932216842
 30
0.0
 41
3.000002787824364
 42
2.999989273978464
 50
180.0
  0
INSERT
  5
106
330
1F
100
AcDbEntity
  8
0
 62
     9
100
AcDbBlockReference
  2
_OPEN30
 10
76.80500000000005
 20
25.34107932216842
 30
0.0
 41
3.000002787824364
 42
2.999989273978464
 50
360.0
  0
TEXT
  5
108
330
1F
100
AcDbEntity
  8
0
 62
     7
100
AcDbText
 10
-33.19499999999997
 20
0.647234628864771
 30
0.0
 40
4.0
  1
1.5
 50
90.0
 41
0.7999999999999999
  7
FDASTYLE0
 72
     5
 11
-33.19499999999997
 21
10.24723462886477
 31
0.0
100
AcDbText
  0
TEXT
  5
109
330
1F
100
AcDbEntity
  8
0
 62
     7
100
AcDbText
 10
-35.79499999999996
 20
11.24723462886477
 30
0.0
 40
2.6
  1
±0.1
 50
90.0
 41
0.7619047619047619
  7
FDASTYLE0
 72
     5
 11
-35.79499999999996
 21
19.56723462886477
 31
0.0
100
AcDbText
  0
TEXT
  5
10A
330
1F
100
AcDbEntity
  8
0
 62
     7
100
AcDbText
 10
-41.19499999999997
 20
0.4839351278810691
 30
0.0
 40
4.0
  1
φ2
 50
90.0
 41
0.7272727272727271
  7
FDASTYLE0
 72
     5
 11
-41.19499999999997
 21
6.883935127881068
 31
0.0
100
AcDbText
  0
TEXT
  5
10B
330
1F
100
AcDbEntity
  8
0
 62
     7
100
AcDbText
 10
-43.79499999999996
 20
7.883935127881067
 30
0.0
 40
2.6
  1
+0.005
 50
90.0
 41
0.7999999999999999
  7
FDASTYLE0
 72
     5
 11
-43.79499999999996
 21
20.36393512788107
 31
0.0
100
AcDbText
  0
TEXT
  5
10C
330
1F
100
AcDbEntity
  8
0
 62
     7
100
AcDbText
 10
-40.99499999999996
 20
7.883935127881067
 30
0.0
 40
2.6
  1
-0.015
 50
90.0
 41
0.7999999999999999
  7
FDASTYLE0
 72
     5
 11
-40.99499999999996
 21
20.36393512788107
 31
0.0
100
AcDbText
  0
TEXT
  5
10D
330
1F
100
AcDbEntity
  8
0
 62
     7
100
AcDbText
 10
-49.19499999999997
 20
-8.858920677831582
 30
0.0
 40
4.0
  1
φ6
 50
90.0
 41
0.7272727272727279
  7
FDASTYLE0
 72
     5
 11
-49.19499999999997
 21
-2.458920677831577
 31
0.0
100
AcDbText
  0
TEXT
  5
10E
330
1F
100
AcDbEntity
  8
0
 62
     7
100
AcDbText
 10
-57.22558441144601
 20
-10.2444163122717
 30
0.0
 40
4.0
  1
φ10
 50
90.0
 41
0.7499999999999996
  7
FDASTYLE0
 72
     5
 11
-57.22558441144601
 21
-0.6444163122717086
 31
0.0
100
AcDbText
  0
TEXT
  5
10F
330
1F
100
AcDbEntity
  8
0
 62
     7
100
AcDbText
 10
-59.825584411446
 20
0.3555836877282914
 30
0.0
 40
2.6
  1
±0.1
 50
90.0
 41
0.7619047619047619
  7
FDASTYLE0
 72
     5
 11
-59.825584411446
 21
8.675583687728292
 31
0.0
100
AcDbText
  0
TEXT
  5
110
330
1F
100
AcDbEntity
  8
0
 62
     7
100
AcDbText
 10
-22.29499999999996
 20
15.34107932216842
 30
0.0
 40
4.0
  1
5
 41
0.8000000000000007
  7
FDASTYLE0
 72
     5
 11
-19.09499999999996
 21
15.34107932216842
 31
0.0
100
AcDbText
  0
TEXT
  5
111
330
1F
100
AcDbEntity
  8
0
 62
     7
100
AcDbText
 10
-9.747219999999953
 20
-18.65892067783158
 30
0.0
 40
4.0
  1
0.5
 41
0.8000000000000002
  7
FDASTYLE0
 72
     5
 11
-0.1472199999999511
 21
-18.65892067783158
 31
0.0
100
AcDbText
  0
TEXT
  5
112
330
1F
100
AcDbEntity
  8
0
 62
     7
100
AcDbText
 10
5.09732119350597
 20
19.25078596041828
 30
0.0
 40
4.0
  1
24.6
 41
0.8
  7
FDASTYLE0
 72
     5
 11
17.89732119350597
 21
19.25078596041828
 31
0.0
100
AcDbText
  0
TEXT
  5
113
330
1F
100
AcDbEntity
  8
0
 62
     7
100
AcDbText
 10
-39.89277999999996
 20
26.34107932216842
 30
0.0
 40
4.0
  1
7.55
 41
0.7999999999999998
  7
FDASTYLE0
 72
     5
 11
-27.09277999999996
 21
26.34107932216842
 31
0.0
100
AcDbText
  0
TEXT
  5
114
330
1F
100
AcDbEntity
  8
0
 62
     7
100
AcDbText
 10
-16.35155229408073
 20
27.03316959351588
 30
0.0
 40
4.0
  1
2
 41
0.8000000000000003
  7
FDASTYLE0
 72
     5
 11
-13.15155229408073
 21
27.03316959351588
 31
0.0
100
AcDbText
  0
TEXT
  5
115
330
1F
100
AcDbEntity
  8
0
 62
     7
100
AcDbText
 10
-2.919999999999952
 20
26.34107932216842
 30
0.0
 40
4.0
  1
37.45
 41
0.8
  7
FDASTYLE0
 72
     5
 11
13.08000000000005
 21
26.34107932216842
 31
0.0
100
AcDbText
  0
TEXT
  5
116
330
1F
100
AcDbEntity
  8
0
 62
     7
100
AcDbText
 10
44.88900000000005
 20
26.34107932216842
 30
0.0
 40
4.0
  1
50
 41
0.8000000000000007
  7
FDASTYLE0
 72
     5
 11
51.28900000000005
 21
26.34107932216842
 31
0.0
100
AcDbText
  0
TEXT
  5
117
330
1F
100
AcDbEntity
  8
0
 62
     7
100
AcDbText
 10
52.28900000000005
 20
28.94107932216841
 30
0.0
 40
2.6
  1
±5
 41
0.7272727272727279
  7
FDASTYLE0
 72
     5
 11
56.44900000000006
 21
28.94107932216841
 31
0.0
100
AcDbText
  0
TEXT
  5
118
330
1F
100
AcDbEntity
  8
0
 62
     7
100
AcDbText
 10
-55.73499999999997
 20
-18.65892067783158
 30
0.0
 40
4.0
  1
M5.5(P=0.5)
 41
0.8
  7
FDASTYLE0
 72
     5
 11
-20.53499999999997
 21
-18.65892067783158
 31
0.0
100
AcDbText
  0
TEXT
  5
119
330
1F
100
AcDbEntity
  8
0
 62
     7
100
AcDbText
 10
27.30500000000005
 20
10.84107932216842
 30
0.0
 40
4.0
  1
ＵＬ３４４３　ＡＷＧ＃２８
 41
0.6666666666666669
  7
FDASTYLE0
 72
     5
 11
68.90500000000006
 21
10.84107932216842
 31
0.0
100
AcDbText
  0
TEXT
  5
11A
330
1F
100
AcDbEntity
  8
0
 62
     7
100
AcDbText
 10
30.30500000000005
 20
-18.65892067783158
 30
0.0
 40
4.0
  1
ＵＬ３４４３　ＡＷＧ＃２８
 41
0.6666666666666669
  7
FDASTYLE0
 72
     5
 11
71.90500000000006
 21
-18.65892067783158
 31
0.0
100
AcDbText
  0
TEXT
  5
11B
330
1F
100
AcDbEntity
  8
0
 62
     7
100
AcDbText
 10
58.20500000000003
 20
19.34107932216842
 30
0.0
 40
4.0
  1
(5)
 41
0.8000000000000002
  7
FDASTYLE0
 72
     5
 11
67.80500000000004
 21
19.34107932216842
 31
0.0
100
AcDbText
  0
TEXT
  5
11C
330
1F
100
AcDbEntity
  8
0
 62
     7
100
AcDbText
 10
14.50785562341321
 20
-19.49496912097715
 30
0.0
 40
2.5
  1
±0.2
 50
90.0
 41
0.7619047619047619
  7
FDASTYLE0
 72
     5
 11
14.50785562341321
 21
-11.49496912097715
 31
0.0
100
AcDbText
  0
TEXT
  5
11D
330
1F
100
AcDbEntity
  8
0
 62
     7
100
AcDbText
 10
18.80500000000005
 20
-27.345
 30
0.0
 40
4.0
  1
φ10
 50
90.0
 41
0.7500000000000001
  7
FDASTYLE0
 72
     5
 11
18.80500000000005
 21
-17.745
 31
0.0
100
AcDbText
  0
TEXT
  5
11E
330
1F
100
AcDbEntity
  8
0
 62
     7
100
AcDbText
 10
-40.59499999999996
 20
-27.9666930122842
 30
0.0
 40
4.0
  1
NAMEPLATE　LOT№
 41
0.7777777777777778
  7
FDASTYLE0
 72
     5
 11
4.205000000000048
 21
-27.9666930122842
 31
0.0
100
AcDbText
  0
TEXT
  5
11F
330
1F
100
AcDbEntity
  8
0
 62
     7
100
AcDbText
 10
27.30500000000005
 20
4.841079322168421
 30
0.0
 40
4.0
  1
ＢＬＡＣＫ（-）
 41
0.6808510638297872
  7
FDASTYLE0
 72
     5
 11
52.90500000000005
 21
4.841079322168421
 31
0.0
100
AcDbText
  0
TEXT
  5
120
330
1F
100
AcDbEntity
  8
0
 62
     7
100
AcDbText
 10
30.30500000000005
 20
-24.65892067783158
 30
0.0
 40
4.0
  1
ＲＥＤ（＋）
 41
0.6666666666666669
  7
FDASTYLE0
 72
     5
 11
49.50500000000005
 21
-24.65892067783158
 31
0.0
100
AcDbText
  0
VIEWPORT
  5
46
330
1B
100
AcDbEntity
 67
     1
  8
0
100
AcDbViewport
 10
2.901584050743139
 20
1.482582684174162
 30
0.0
 40
480.5795043044588
 41
180.3509798279656
 68
     1
 69
     1
1001
ACAD
1000
MVIEW
1002
{
1070
    16
1010
0.0
1020
0.0
1030
0.0
1010
0.0
1020
0.0
1030
1.0
1040
0.0
1040
180.3509798279656
1040
2.901584050743139
1040
1.482582684174162
1040
50.0
1040
0.0
1040
0.0
1070
     0
1070
   100
1070
     0
1070
     1
1070
     0
1070
     0
1070
     0
1070
     0
1040
0.0
1040
0.0
1040
0.0
1040
0.5
1040
0.5
1040
0.0
1040
0.0
1070
     0
1002
{
1002
}
1002
}
  0
ENDSEC
  0
SECTION
  2
OBJECTS
  0
DICTIONARY
  5
C
330
0
100
AcDbDictionary
  3
ACAD_GROUP
350
D
  3
ACAD_LAYOUT
350
1A
  3
ACAD_MLINESTYLE
350
17
  3
ACAD_PLOTSETTINGS
350
19
  3
ACDBHEADERROUNDTRIPXREC
350
121
  0
DICTIONARY
  5
D
102
{ACAD_REACTORS
330
C
102
}
330
C
100
AcDbDictionary
  0
DICTIONARY
  5
1A
102
{ACAD_REACTORS
330
C
102
}
330
C
100
AcDbDictionary
  0
DICTIONARY
  5
17
102
{ACAD_REACTORS
330
C
102
}
330
C
100
AcDbDictionary
  3
STANDARD
350
18
  0
DICTIONARY
  5
19
102
{ACAD_REACTORS
330
C
102
}
330
C
100
AcDbDictionary
  0
DICTIONARY
  5
121
102
{ACAD_REACTORS
330
C
102
}
330
C
100
AcDbDictionary
  3
CEPSNTYPE
350
12A
  3
DIMSTYLEDATA
350
140
  3
FINGERPRINTGUID
350
12B
  3
HYPERLINKBASE
350
124
  3
INSUNITS
350
129
  3
LAYOUTDICT
350
126
  3
LWETCUNION
350
128
  3
PLOTSETDICT
350
127
  3
PSVPSCALE
350
12D
  3
PUCSBASE
350
130
  3
PUCSORGBACK
350
136
  3
PUCSORGBOTTOM
350
132
  3
PUCSORGFRONT
350
135
  3
PUCSORGLEFT
350
133
  3
PUCSORGRIGHT
350
134
  3
PUCSORGTOP
350
131
  3
PUCSORTHOREF
350
12E
  3
PUCSORTHOVIEW
350
12F
  3
STYLESHEET
350
125
  3
TSTACKALIGN
350
122
  3
TSTACKSIZE
350
123
  3
UCSBASE
350
139
  3
UCSORGBACK
350
13F
  3
UCSORGBOTTOM
350
13B
  3
UCSORGFRONT
350
13E
  3
UCSORGLEFT
350
13C
  3
UCSORGRIGHT
350
13D
  3
UCSORGTOP
350
13A
  3
UCSORTHOREF
350
137
  3
UCSORTHOVIEW
350
138
  3
VERSIONGUID
350
12C
  0
MLINESTYLE
  5
18
102
{ACAD_REACTORS
330
17
102
}
330
17
100
AcDbMlineStyle
  2
Standard
 70
     0
  3

 62
   256
 51
90.0
 52
90.0
 71
     2
 49
0.5
 62
   256
  6
BYLAYER
 49
-0.5
 62
   256
  6
BYLAYER
  0
XRECORD
  5
12A
102
{ACAD_REACTORS
330
121
102
}
330
121
100
AcDbXrecord
 90
        0
  0
XRECORD
  5
140
102
{ACAD_REACTORS
330
121
102
}
330
121
100
AcDbXrecord
1000
DSTYLE
1002
{
1070
   171
 70
     2
1070
   143
 40
25.4
1070
   274
 70
     2
1070
   141
 40
0.09
1070
   271
 70
     4
1070
    43
 40
0.38
1070
    44
 40
0.18
1070
   278
 70
    46
1070
    42
 40
0.0625
1070
   147
 40
0.09
1070
    77
 70
     3
1070
   272
 70
     4
1070
    73
 70
     1
1070
   172
 70
     0
1070
    74
 70
     1
1070
   283
 70
     1
1070
   340
340
11
1070
   140
 40
0.18
1070
   284
 70
     0
1070
    78
 70
     0
1002
}
  0
XRECORD
  5
12B
102
{ACAD_REACTORS
330
121
102
}
330
121
100
AcDbXrecord
  1
{583E6312-7DD3-4919-9B1D-98A559D8E68D}
  0
XRECORD
  5
124
102
{ACAD_REACTORS
330
121
102
}
330
121
100
AcDbXrecord
  1

  0
XRECORD
  5
129
102
{ACAD_REACTORS
330
121
102
}
330
121
100
AcDbXrecord
 90
        4
  0
XRECORD
  5
126
102
{ACAD_REACTORS
330
121
102
}
330
121
100
AcDbXrecord
340
1A
  0
XRECORD
  5
128
102
{ACAD_REACTORS
330
121
102
}
330
121
100
AcDbXrecord
 90
    10781
  0
XRECORD
  5
127
102
{ACAD_REACTORS
330
121
102
}
330
121
100
AcDbXrecord
340
19
  0
XRECORD
  5
12D
102
{ACAD_REACTORS
330
121
102
}
330
121
100
AcDbXrecord
 40
0.0
  0
XRECORD
  5
130
102
{ACAD_REACTORS
330
121
102
}
330
121
100
AcDbXrecord
340
0
  0
XRECORD
  5
136
102
{ACAD_REACTORS
330
121
102
}
330
121
100
AcDbXrecord
 10
0.0
 20
0.0
 30
0.0
  0
XRECORD
  5
132
102
{ACAD_REACTORS
330
121
102
}
330
121
100
AcDbXrecord
 10
0.0
 20
0.0
 30
0.0
  0
XRECORD
  5
135
102
{ACAD_REACTORS
330
121
102
}
330
121
100
AcDbXrecord
 10
0.0
 20
0.0
 30
0.0
  0
XRECORD
  5
133
102
{ACAD_REACTORS
330
121
102
}
330
121
100
AcDbXrecord
 10
0.0
 20
0.0
 30
0.0
  0
XRECORD
  5
134
102
{ACAD_REACTORS
330
121
102
}
330
121
100
AcDbXrecord
 10
0.0
 20
0.0
 30
0.0
  0
XRECORD
  5
131
102
{ACAD_REACTORS
330
121
102
}
330
121
100
AcDbXrecord
 10
0.0
 20
0.0
 30
0.0
  0
XRECORD
  5
12E
102
{ACAD_REACTORS
330
121
102
}
330
121
100
AcDbXrecord
340
0
  0
XRECORD
  5
12F
102
{ACAD_REACTORS
330
121
102
}
330
121
100
AcDbXrecord
 70
     0
  0
XRECORD
  5
125
102
{ACAD_REACTORS
330
121
102
}
330
121
100
AcDbXrecord
  1

  0
XRECORD
  5
122
102
{ACAD_REACTORS
330
121
102
}
330
121
100
AcDbXrecord
 90
        1
  0
XRECORD
  5
123
102
{ACAD_REACTORS
330
121
102
}
330
121
100
AcDbXrecord
 90
       70
  0
XRECORD
  5
139
102
{ACAD_REACTORS
330
121
102
}
330
121
100
AcDbXrecord
340
0
  0
XRECORD
  5
13F
102
{ACAD_REACTORS
330
121
102
}
330
121
100
AcDbXrecord
 10
0.0
 20
0.0
 30
0.0
  0
XRECORD
  5
13B
102
{ACAD_REACTORS
330
121
102
}
330
121
100
AcDbXrecord
 10
0.0
 20
0.0
 30
0.0
  0
XRECORD
  5
13E
102
{ACAD_REACTORS
330
121
102
}
330
121
100
AcDbXrecord
 10
0.0
 20
0.0
 30
0.0
  0
XRECORD
  5
13C
102
{ACAD_REACTORS
330
121
102
}
330
121
100
AcDbXrecord
 10
0.0
 20
0.0
 30
0.0
  0
XRECORD
  5
13D
102
{ACAD_REACTORS
330
121
102
}
330
121
100
AcDbXrecord
 10
0.0
 20
0.0
 30
0.0
  0
XRECORD
  5
13A
102
{ACAD_REACTORS
330
121
102
}
330
121
100
AcDbXrecord
 10
0.0
 20
0.0
 30
0.0
  0
XRECORD
  5
137
102
{ACAD_REACTORS
330
121
102
}
330
121
100
AcDbXrecord
340
0
  0
XRECORD
  5
138
102
{ACAD_REACTORS
330
121
102
}
330
121
100
AcDbXrecord
 70
     0
  0
XRECORD
  5
12C
102
{ACAD_REACTORS
330
121
102
}
330
121
100
AcDbXrecord
  1
{FAEB1C32-E019-11D5-929B-00C0DF256EC4}
  0
ENDSEC
  0
EOF
